Zóna A: Akordy k piesni Záverečná

Upraviť pieseň
Interpret: Zóna A


Zóna A - Záverečná (akordy)

Transpozícia ( -2 -1 0 +1 +2 )


A, E, F#mi, D, A, E, D, A



E|--------|--------|--------|--------|
H|--------|22222---|555552-2|-252----|
G|222224--|-----4--|--------|4---2---|
D|--------|--------|--------|--------|
A|--------|--------|--------|--------|
E|--------|--------|--------|--------|

E|--------|--------|--------|--------|
H|--------|22222---|55555222|-2------|
G|222224--|-----4--|--------|4-42----|
D|--------|--------|--------|--------|
A|--------|--------|--------|--------|
E|--------|--------|--------|--------|





AKaždý večer spolu chodíme
a EvodímeD sa Aza ruky
Aspoločne sa nudíme
a Echceš odoD mňa Azáruky



Že naša Dláska nikdy neskončí
že je AnekoGnečná F#miA
ja však Dzačínam mať obavy
že je tu AzáveGrečnáF#miA


®:

Hmiúú Cu a u a Hmiúú Cu a u a
Hmiúú Cu a u a
Dua ua uauaua
AUž je Eto tu, F#miuž je Dto tu
Auž je Eto tu, DzávereAčná
Auž je Eto tu, F#miuž je Dto tu
Auž je Eto tu, DzávereAčná

*** sólo - pozri úvod ***

Nemôžem ti už predstierať
to že ťa ľúbim
neplatí už dávno to
čo som ti sľúbil

Nemôžem ti už predstierať
to čo nie je pravda
nemôžem ti už dávať niečo
čo je dávno preč



Ďalšie piesne z albumu

Je to zlé

Zóna A

Puf a Muf

Zóna A

Pakaren

Zóna A

Pivo

Zóna A

Nezmenim sa

Zóna A

Utek z reality

Zóna A

Polka

Zóna A

A.I.D.S

Zóna A

M.H.D.

Zóna A

Novinky v katalógu

Najpopulárnejšie piesne interpreta

Akordy

C C# D D# Es E F F# G G# As A A# B H 

Najčítanejšie