Tublatanka: Akordy k piesni Pieseň pre stratených synov

Upraviť pieseň
Interpret: Tublatanka


Tublatanka - Pieseň pre stratených synov (akordy)

Transpozícia ( -2 -1 0 +1 +2 )



Sloha:
E|-----7-7----8-8----10-10----7-7----8----5-----|
B|-----8-8----8-8-----8--8----8-8----8----7-----|
G|-----0-0----0-0-----0--0----0-0----0----0-----|
D|----------------------------------------------|
A|----------------------------------------------|
E|----------------------------------------------|

E|-----7-7----8-8----10-10----7-7----8----5-----|
B|-----8-8----8-8-----8--8----8-8----8----7-----|
G|-----0-0----0-0-----0--0----0-0----0----0-----|
D|----------------------------------------------|
A|----------------------------------------------|
E|----------------------------------------------|

E|-----7-7----8-8----10-10----7-7----8----5-----|
B|-----8-8----8-8-----8--8----8-8----8----7-----|
G|-----0-0----0-0-----0--0----0-0----0----0-----|
D|----------------------------------------------|
A|----------------------------------------------|
E|----------------------------------------------|

E|-----7-7----5-5-----7-7----5-5----3----5------|
B|-----8-8----7-7-----8-8----7-7----5----7------|
G|-----0-0----0-0-----0-0----0-0----0----0------|
D|----------------------------------------------|
A|----------------------------------------------|
E|----------------------------------------------|



Poďme spolu, buďme všetci bratia,
pokoj a mier nech sa k ľuďom vrátia,
no hviezdny čas už dáva nám znamenie.

Snehom sa k nám Traja Králi brodia,
po krajine dňom aj nocou chodia,
odpúšťajú všetkým synom strateným.

R.: CJežiš Kristus Ddá kúsok Gchleba G/F#pocestEminým,
Emi/Dtí, čo Amilásku hľadaDjú, verte, Gže Amiju HminájDdu.
CDobrý človek Dnám pohár Gčírej G/F#vody Emidá,
Emi/Dveď je Amichvíľa sviatočDná - vianočGná.

Do kráľovstva čistých detských očí
prichádzame spolu v zlatom koči,
dnes je ten deň, čo naň všetci čakajú.

Noc je čierna, ale sneh je biely,
život ťažký, ale nie zas celý,
radujme sa a nesme si ten svoj kríž.

R.2x: Ježiš Kristus dá kúsok chleba pocestným,
tí, čo lásku hľadajú, verte, že ju nájdu.
Dobrý človek nám pohár čírej vody dá,
veď je chvíľa sviatočná - vianočná.

Ďalšie piesne z albumu

Novinky v katalógu

Najpopulárnejšie piesne interpreta

Dnes

Tublatanka

Matka

Tublatanka

Loď do neznáma

Tublatanka

Pravda víťazí

Tublatanka

Šlabikár

Tublatanka

Akordy

C C# D D# Es E F F# G G# As A A# B H 

Najčítanejšie